Cllick For LyricsInc.Home Page

LyricsInc Has 362540 Lyrics, Chords And Tabs. Enjoy The Praise And Worship Lyrics, Midi Files, Music Videos And Artist News. We Add Lyrics Daily.THANKS For Using LYRICS INC.COM

  Christian Lyrics And Chords Christian Lyrics
  Christian Lyrics And Chords 
Praise Worship
  Christian Lyrics. Praise And Worship Lyrics And Chords 
Artist Lyrics
  Christian Lyrics. Praise And Worship Lyrics And Chords 
Compilations
  Christian Lyrics. Praise And Worship Lyrics And Chords Top 20 Lyrics
  Christian Lyrics. Praise And Worship Lyrics And Chords 
Soundtracks
  Christian Lyrics. Praise And Worship Lyrics And Chords 
Cartoons Lyrics
  Christian Lyrics. Praise And Worship Lyrics And Chords Game lyrics
  Christian Lyrics. Praise And Worship Lyrics And Chords Movie Lyrics
  Christian Lyrics. Praise And Worship Lyrics And Chords 
Musical Lyrics
  Christian Lyrics. Praise And Worship Lyrics And Chords Miscellaneous
  Christian Lyrics. Praise And Worship Lyrics And Chords 
TV Lyrics
Lyrics Alphabetical By Artist - Search Lyrics By Artist -

by Google
 

Click For Printer Plain Text...Praise & Worship Lyrics And Chords

ACQUIESCE

Year: 1998
                                   *This one's in drop D tuning

Intro:
G-|-------------------------------------------------|
D-|-------------------------------------------------|
A-|-0---3-----------------1-1-1-1-1-1-1-1-1-1-1-1-1-|
D-|---0---0-5-8-0----0------------------------------|

G-|-----------------------------------------------------------------|
D-|-----------------------------------------------------------------| \ x3
A-|-5-5-5-5-5-5-5-5-5-5-5-5-5-5-5-5-3-3-3-3-3-3-3-3-3-3-3-3-3-3-3-3-| /
D-|-----------------------------------------------------------------|

G-|-------------|
D-|-------------|
A-|-1--1--1--1--|
D-|-------------|

G-|-------------------------------------------------------------------------|
D-|-------------2-2-5-5-----------------------------------------------------|
A-|-5-5-5-5-3-3---------5-5-5-5-3-3-3-3-5-5-5-5-3-3-3-3-1-1-1-1-0---3-------|
D-|---------------------------------------------------------------0---0-5-8-|
Even now your eyes are courting sleep
I'll stay by your side as I have always been
Sleep tonight, may your dreams reveal my love for you
Beyond what I must do, do you know my plans for you

G-|-------------------------------------------------------------|
D-|-------------2-2-5-5-------------3-2-------------------------|
A-|-5-5-5-5-3-3---------5-5-5-5-3-3-----5-5-5-5-3-3-3-3-1-1-1-1-|
D-|-------------------------------------------------------------|
To separate myself from where my treasure lies
Then naked in this cold and lonely unforgiving life
Be stripped away of all delusions of the man I'd like to be at the moment
I am broken parts sure of only weaknesses with nothing left to show
No illusions left to hide behind
Burning clean has been both agony and absolute release
Can I hope to pass this test
G-|-------------------------|
D-|-------------------------|
A-|-0---3-------0---3-------|
D-|---0---0-5-8---0---0-5-8-|
is my destiny the wilderness

G-|-------------------------|
D-|-------------------------|
A-|-0---3-------0---3-------|
D-|---0---0-5-8---0---0-5-8-|
The hardest part of letting go
Is trusting you with everything
In laying bare my soul is truly seeing who I really am
G-|------------|
D-|------------|
A-|-1-1-1-1/13-|
D-|------------|
Father what is man that You are mindful of him

--- No Bass ---
Can I pass this test, is my destiny this wilderness

G-|---------|
D-|---------|
A-|-1-1-1-1-|
D-|---------|

G-|-------------------------------------------------------------|
D-|-------------2-2-5-5-------------3-2-------------------------|
A-|-5-5-5-5-3-3---------5-5-5-5-3-3-----5-5-5-5-3-3-3-3-1-1-1-1-|
D-|-------------------------------------------------------------|
To stand alone against a life of wretchedness
Impossible to hope and so I plead
Your graciousness show me your glory
May my life reflect your presence
And never again
G-|-------------------------|
D-|-------------------------|
A-|-0---3-------0---3-------|
D-|---0---0-5-8---0---0-5-8-|
find myself in anything less

G-|-------------------------|
D-|-------------------------|
A-|-0---3-------0---3-------|
D-|---0---0-5-8---0---0-5-8-|
The hardest part of letting go
Is trusting you with everything
In laying bare my soul is truly seeing who I really am
G-|------------|
D-|------------|
A-|-1-1-1-1/13-|
D-|------------|
Father what is man that You are mindful

G-|-------------|
D-|-------------|
A-|-0---3-------|
D-|---0---0-5-8-|





ChristianLyrics.org
Lyrics And Chrords
www.christianlyrics.org

LyricInc.org
Lyrics And Chrords
www.lyricsinc.org

LyricInc.net
Lyrics And Chrords
www.lyricsinc.net

15,000 Videos, HP Tube
Christian Videos
www.higherpraisetube.com


1GodTube.com
Chistian Videos
www1godtube..com

OneGodTube.com
Chistian Videos
www.onegodtube..com