Cllick For LyricsInc.Home Page

LyricsInc Has 362540 Lyrics, Chords And Tabs. Enjoy The Praise And Worship Lyrics, Midi Files, Music Videos And Artist News. We Add Lyrics Daily.THANKS For Using LYRICS INC.COM

  Christian Lyrics And Chords Christian Lyrics
  Christian Lyrics And Chords 
Praise Worship
  Christian Lyrics. Praise And Worship Lyrics And Chords 
Artist Lyrics
  Christian Lyrics. Praise And Worship Lyrics And Chords 
Compilations
  Christian Lyrics. Praise And Worship Lyrics And Chords Top 20 Lyrics
  Christian Lyrics. Praise And Worship Lyrics And Chords 
Soundtracks
  Christian Lyrics. Praise And Worship Lyrics And Chords 
Cartoons Lyrics
  Christian Lyrics. Praise And Worship Lyrics And Chords Game lyrics
  Christian Lyrics. Praise And Worship Lyrics And Chords Movie Lyrics
  Christian Lyrics. Praise And Worship Lyrics And Chords 
Musical Lyrics
  Christian Lyrics. Praise And Worship Lyrics And Chords Miscellaneous
  Christian Lyrics. Praise And Worship Lyrics And Chords 
TV Lyrics
Lyrics Alphabetical By Artist - Search Lyrics By Artist -

by Google
 

Click For Printer Plain Text...Praise & Worship Lyrics And Chords

A STAR IS BORN

Year: 1998
                                   G-|-----------9-7-------------------------7-5----------|
D-|-------6-7-----9-7-9-7-5----------4-5------7--7-5---|
A-|-7-7-7-------------------7--5-5-5-----------------7-|
E-|----------------------------------------------------|
It's what you want
It's what you need
Man they got the thing for you
G-|------------------------------------9-7-----------|
D-|-----------7-5---5---5-7----------------9-7-9-7-5-|
A-|-------4-5-----7---7------7-7-7-5-7---------------|
E-|-5-5-5--------------------------------------------|
They'll break you big
just like a chemical reaction
Then they'll tell you what to say and do
G-|-----------9-7-------------------------7-5----------|
D-|-------6-7-----9-7-9-7-5----------4-5------7--7-5---|
A-|-7-7-7-------------------7--5-5-5-----------------7-|
E-|----------------------------------------------------|
You want this
You need that
But nobody really knows why
G-|------------------------------------9-7-----------|
D-|-----------7-5---5---5-7----------------9-7-9-7-5-|
A-|-------4-5-----7---7------7-7-7-5-7---------------|
E-|-5-5-5--------------------------------------------|
They take control
No self control
You're just along for the ride

G-|-----------9-7-------------------------7-5----------|
D-|-------6-7-----9-7-9-7-5----------4-5------7--7-5---|
A-|-7-7-7-------------------7--5-5-5-----------------7-|
E-|----------------------------------------------------|
It's what you need
It's what you need
G-|------------------------------------9-7-----------|
D-|-----------7-5---5---5-7----------------9-7-9-7-5-|
A-|-------4-5-----7---7------7-7-7-5-7---------------|
E-|-5-5-5--------------------------------------------|
It's what you need
It's what you need
G-|-----------9-7-------------------------7-5----------|
D-|-------6-7-----9-7-9-7-5----------4-5------7--7-5---|
A-|-7-7-7-------------------7--5-5-5-----------------7-|
E-|----------------------------------------------------|
It's what you need
It's what you need
G-|------------------------------------9-7-----------|
D-|-----------7-5---5---5-7----------------9-7-9-7-5-|
A-|-------4-5-----7---7------7-7-7-5-7---------------|
E-|-5-5-5--------------------------------------------|
It's what you need
It's what you need

G-|-------------------------------------------------------------------------|
D-|---------------------------------------------------6---6-7-9-7-6-7-9-7-6-|
A-|-5-5-4-------4-5-5-5-4-------4-5-5-5-4-------4-7-7---7-------------------|
E-|-------5-5-5-----------5-5-5-----------5-5-5-----------------------------|
Take time to think
is what you want
what you need this time?
Look around, take a hold
Who's in control of your life?

G-|-----------9-7-------------------------7-5----------|
D-|-------6-7-----9-7-9-7-5----------4-5------7--7-5---|
A-|-7-7-7-------------------7--5-5-5-----------------7-|
E-|----------------------------------------------------|
You used to think you had it all figured out
You'd never fall for their game
G-|------------------------------------9-7-----------|
D-|-----------7-5---5---5-7----------------9-7-9-7-5-|
A-|-------4-5-----7---7------7-7-7-5-7---------------|
E-|-5-5-5--------------------------------------------|
Now you want out but that's a criminal action
and now you're going insane
G-|-----------9-7-------------------------7-5----------|
D-|-------6-7-----9-7-9-7-5----------4-5------7--7-5---|
A-|-7-7-7-------------------7--5-5-5-----------------7-|
E-|----------------------------------------------------|
Pride in your heart
Filth in your mind
I see the lust in your eyes
G-|------------------------------------9-7-----------|
D-|-----------7-5---5---5-7----------------9-7-9-7-5-|
A-|-------4-5-----7---7------7-7-7-5-7---------------|
E-|-5-5-5--------------------------------------------|
Turned back around to your one true love
Integrity in sight

G-|-----------9-7-------------------------7-5----------|
D-|-------6-7-----9-7-9-7-5----------4-5------7--7-5---|
A-|-7-7-7-------------------7--5-5-5-----------------7-|
E-|----------------------------------------------------|
It's what you need
It's what you need
G-|------------------------------------9-7-----------|
D-|-----------7-5---5---5-7----------------9-7-9-7-5-|
A-|-------4-5-----7---7------7-7-7-5-7---------------|
E-|-5-5-5--------------------------------------------|
It's what you need
It's what you need
G-|-----------9-7-------------------------7-5----------|
D-|-------6-7-----9-7-9-7-5----------4-5------7--7-5---|
A-|-7-7-7-------------------7--5-5-5-----------------7-|
E-|----------------------------------------------------|
It's what you need
It's what you need
G-|------------------------------------9-7-----------|
D-|-----------7-5---5---5-7----------------9-7-9-7-5-|
A-|-------4-5-----7---7------7-7-7-5-7---------------|
E-|-5-5-5--------------------------------------------|
It's what you need
It's what you need

G-|-------------------------------------------------------------------------|
D-|---------------------------------------------------6---6-7-9-7-6-7-9-7-6-|
A-|-5-5-4-------4-5-5-5-4-------4-5-5-5-4-------4-7-7---7-------------------|
E-|-------5-5-5-----------5-5-5-----------5-5-5-----------------------------|
Take time to think
is what you want
what you need this time?
Look around, take a hold
Who's in control of your life?

--- No bass ---
Whoa oh oh oh
Whoa oh oh oh
Whoa oh oh oh
Whoa oh oh oh

G-|-----------9-7-----------|
D-|---------------9-7-9-7-5-|
A-|-7-7-7-5-7---------------|
E-|-------------------------|
It's what you need
It's what you need
G-|-----------9-7-------------------------7-5----------|
D-|-------6-7-----9-7-9-7-5----------4-5------7--7-5---|
A-|-7-7-7-------------------7--5-5-5-----------------7-|
E-|----------------------------------------------------|
It's what you need
It's what you need
G-|------------------------------------9-7-----------|
D-|-----------7-5---5---5-7----------------9-7-9-7-5-|
A-|-------4-5-----7---7------7-7-7-5-7---------------|
E-|-5-5-5--------------------------------------------|
It's what you need
It's what you need
G-|-----------9-7-------------------------7-5----------|
D-|-------6-7-----9-7-9-7-5----------4-5------7--7-5---|
A-|-7-7-7-------------------7--5-5-5-----------------7-|
E-|----------------------------------------------------|
It's what you need
It's what you need
G-|------------------------------------9-7-----------|
D-|-----------7-5---5---5-7----------------9-7-9-7-5-|
A-|-------4-5-----7---7------7-7-7-5-7---------------|
E-|-5-5-5--------------------------------------------|
It's what you need
It's what you need this time





ChristianLyrics.org
Lyrics And Chrords
www.christianlyrics.org

LyricInc.org
Lyrics And Chrords
www.lyricsinc.org

LyricInc.net
Lyrics And Chrords
www.lyricsinc.net

15,000 Videos, HP Tube
Christian Videos
www.higherpraisetube.com


1GodTube.com
Chistian Videos
www1godtube..com

OneGodTube.com
Chistian Videos
www.onegodtube..com