Cllick For LyricsInc.Home Page

LyricsInc Has 362540 Lyrics, Chords And Tabs. Enjoy The Praise And Worship Lyrics, Midi Files, Music Videos And Artist News. We Add Lyrics Daily.THANKS For Using LYRICS INC.COM

  Christian Lyrics And Chords Christian Lyrics
  Christian Lyrics And Chords 
Praise Worship
  Christian Lyrics. Praise And Worship Lyrics And Chords 
Artist Lyrics
  Christian Lyrics. Praise And Worship Lyrics And Chords 
Compilations
  Christian Lyrics. Praise And Worship Lyrics And Chords Top 20 Lyrics
  Christian Lyrics. Praise And Worship Lyrics And Chords 
Soundtracks
  Christian Lyrics. Praise And Worship Lyrics And Chords 
Cartoons Lyrics
  Christian Lyrics. Praise And Worship Lyrics And Chords Game lyrics
  Christian Lyrics. Praise And Worship Lyrics And Chords Movie Lyrics
  Christian Lyrics. Praise And Worship Lyrics And Chords 
Musical Lyrics
  Christian Lyrics. Praise And Worship Lyrics And Chords Miscellaneous
  Christian Lyrics. Praise And Worship Lyrics And Chords 
TV Lyrics
 
HOME 0-9 A B C D E F G H I J K L M N O P Q R S T U V W X Y Z
Christian Lyrics Tabs Or Chords, Click On The First Letter Of The Title

Click For Printer Plain Text...Praise & Worship Lyrics And Chords
Artist: SAVIOUR MACHINE

A WORLD ALONE

Copyright: COPYRIGHT 1993 INTENSE RECORDS
Year: 1996
                                   
Riff 1
"Love leaves the soul...."
|--------------------------------------------------------------
|----7-----7-----7-----7-----7-----7-----7-----7---------------
|--10-10-10-10-10-10-10-10-10-10-10-10-10-10-10-10-------------
|-9-----9-----9-----9-----8-----8-----8-----8------------------
|--------------------------------------------------------------
|--------------------------------------------------------------

Riff 2
"stands alone.... in the grasp....!!!"
|-----------------------------6-------6-------6-------6--------
|----7-----7-----7-----7----9--9-9--9--9-9--9--9-9--9--9-9-----
|--10-10-10-10-10-10-10-10-8-8--8--8-8--8--8-8--8--8-8--8------
|-7-----7-----7-----7-----6-------6-------6-------6------------
|--------------------------------------------------------------
|--------------------------------------------------------------
"hands..."
|-----5--------------------------------------------------------
|---8--8-8--3-5-3----------------------------------------------
|--7-7--7--4-4-4-4---------------------------------------------
|-5-------2----------------------------------------------------
|--------------------------------------------------------------
|--------------------------------------------------------------

Intro, Riff 1 x 2

(Riff 1 x 2)
Love Leaves the Soul
Blood Feeds the man who

(Riff 2)
stands Alone in the Grasp of the Hands
That Fornicate the

(Pick the chords however you like)
Bmin A G
Land, That Emulate the Past
Emin7 Bmin A G
To infiltrate a man to tear his brother's flesh
Emin7 Bmin
then drinks his blood as we confess
A G Emin7 Bmin A
unto the crimes, we lay at rest
G Emin7
we lay at rest


Amin C G Emin7 Amin C G Emin7
Rest upon the hands rest upon the fortress
Amin C G Emin7 Amin C G
hold me in your arms hold on to the dream
Dmin G
and the cry to wipe away the tears


Chorus

C G Amin
In a world that takes away the seeds
G F
and takes away another
G
to fill its evil needs
C G Amin
in a world that takes away the dreams
G F G
when dreams decieve a man, insanity proceeds
C G Amin
in a world that's drowning in it's lies
G F
which persecute his brother
G
for color of his eyes
C G Amin
in a world that radiates the skies
G F
intoxicates the oceans
E
so watch it as it dies, alone


Riff 1 x 2

(Riff 1 x 2)
No one is home, no one will answer the
(Riff 2)
call the cry, hear the cry
comprehend the nature of your

Bmin A G Emin7 Bmin
soul The horrors of a child that slips into the night
A G Emin7 Bmin
surrenders to the fight to find his senses won't reply
A G Emin7 Bmin
unto the evidence he finds along the way
A G Emin7
he dies along the way

Amin C G Emin7
my world has no more meaning
Amin C G Emin7
I've not much more to take
Amin C G Emin7 Amin C G
hold me in your arms, hold on to the dream
Dmin G
and the cry to wipe away the tears


Chorus


I'm not 100% positive about the Emin7 during the Bmin A G Emin7(?) chord progression, it might be a pure E.


ChristianLyrics